ISO-10303-21;
HEADER;
FILE_DESCRIPTION (( 'STEP AP203' ),
    '1' );
FILE_NAME ('CTR10-016-K02-100-1 Òðóáà ãëàäêàÿ æåñòêàÿ ÏÍÄ d16 ÈÝÊ ÷åðíàÿ (100ì).STEP',
    '2016-05-17T06:41:32',
    ( '' ),
    ( '' ),
    'SwSTEP 2.0',
    'SolidWorks 2014',
    '' );
FILE_SCHEMA (( 'CONFIG_CONTROL_DESIGN' ));
ENDSEC;

DATA;
#1 = CC_DESIGN_SECURITY_CLASSIFICATION ( #26, ( #48 ) ) ;
#2 = PERSON_AND_ORGANIZATION ( #4, #134 ) ;
#3 = CALENDAR_DATE ( 2016, 17, 5 ) ;
#4 = PERSON ( 'UNSPECIFIED', 'UNSPECIFIED', 'UNSPECIFIED', ('UNSPECIFIED'), ('UNSPECIFIED'), ('UNSPECIFIED') ) ;
#5 = CC_DESIGN_APPROVAL ( #16, ( #26 ) ) ;
#6 = APPROVAL_DATE_TIME ( #14, #16 ) ;
#7 = DATE_TIME_ROLE ( 'classification_date' ) ;
#8 = APPROVAL_ROLE ( '' ) ;
#9 = PERSON_AND_ORGANIZATION_ROLE ( 'classification_officer' ) ;
#10 = SECURITY_CLASSIFICATION_LEVEL ( 'unclassified' ) ;
#11 = PERSON_AND_ORGANIZATION_ROLE ( 'design_supplier' ) ;
#12 = PERSON_AND_ORGANIZATION_ROLE ( 'creator' ) ;
#13 = PERSON_AND_ORGANIZATION ( #4, #134 ) ;
#14 = DATE_AND_TIME ( #3, #90 ) ;
#15 = APPROVAL_ROLE ( '' ) ;
#16 = APPROVAL ( #71, 'UNSPECIFIED' ) ;
#17 = APPROVAL_STATUS ( 'not_yet_approved' ) ;
#18 = DATE_TIME_ROLE ( 'creation_date' ) ;
#19 = CC_DESIGN_DATE_AND_TIME_ASSIGNMENT ( #159, #7, ( #26 ) ) ;
#20 = CARTESIAN_POINT ( 'NONE',  ( 0.0000000000000000000, 0.0000000000000000000, 2000.000000000000000 ) ) ;
#21 = PERSON_AND_ORGANIZATION_ROLE ( 'creator' ) ;
#22 = CC_DESIGN_PERSON_AND_ORGANIZATION_ASSIGNMENT ( #140, #9, ( #26 ) ) ;
#23 = APPROVAL_ROLE ( '' ) ;
#24 = CARTESIAN_POINT ( 'NONE',  ( 0.0000000000000000000, 0.0000000000000000000, 0.0000000000000000000 ) ) ;
#25 = VERTEX_POINT ( 'NONE', #123 ) ;
#26 = SECURITY_CLASSIFICATION ( '', '', #10 ) ;
#27 = CC_DESIGN_PERSON_AND_ORGANIZATION_ASSIGNMENT ( #148, #11, ( #48 ) ) ;
#28 = APPROVAL_STATUS ( 'not_yet_approved' ) ;
#29 = APPLICATION_PROTOCOL_DEFINITION ( 'international standard', 'config_control_design', 1994, #30 ) ;
#30 = APPLICATION_CONTEXT ( 'configuration controlled 3d designs of mechanical parts and assemblies' ) ;
#31 = VERTEX_POINT ( 'NONE', #107 ) ;
#32 = VERTEX_POINT ( 'NONE', #95 ) ;
#33 = CYLINDRICAL_SURFACE ( 'NONE', #74, 6.000000000000000900 ) ;
#34 = PERSON_AND_ORGANIZATION_ROLE ( 'design_owner' ) ;
#35 = SHAPE_DEFINITION_REPRESENTATION ( #133, #104 ) ;
#36 = EDGE_CURVE ( 'NONE', #40, #40, #105, .T. ) ;
#37 = MECHANICAL_CONTEXT ( 'NONE', #47, 'mechanical' ) ;
#38 = DIRECTION ( 'NONE',  ( 1.000000000000000000, 0.0000000000000000000, 0.0000000000000000000 ) ) ;
#39 = CALENDAR_DATE ( 2016, 17, 5 ) ;
#40 = VERTEX_POINT ( 'NONE', #110 ) ;
#41 = CC_DESIGN_PERSON_AND_ORGANIZATION_ASSIGNMENT ( #135, #12, ( #48 ) ) ;
#42 = FACE_OUTER_BOUND ( 'NONE', #112, .T. ) ;
#43 = CIRCLE ( 'NONE', #117, 8.000000000000000000 ) ;
#44 = CC_DESIGN_APPROVAL ( #45, ( #48 ) ) ;
#45 = APPROVAL ( #17, 'UNSPECIFIED' ) ;
#46 = DATE_AND_TIME ( #136, #143 ) ;
#47 = APPLICATION_CONTEXT ( 'configuration controlled 3d designs of mechanical parts and assemblies' ) ;
#48 = PRODUCT_DEFINITION_FORMATION_WITH_SPECIFIED_SOURCE ( 'ANY', '', #125, .NOT_KNOWN. ) ;
#49 = FACE_BOUND ( 'NONE', #88, .T. ) ;
#50 = FACE_OUTER_BOUND ( 'NONE', #86, .T. ) ;
#51 = COORDINATED_UNIVERSAL_TIME_OFFSET ( 3, 0, .AHEAD. ) ;
#52 = APPLICATION_PROTOCOL_DEFINITION ( 'international standard', 'config_control_design', 1994, #47 ) ;
#53 = CC_DESIGN_DATE_AND_TIME_ASSIGNMENT ( #84, #18, ( #61 ) ) ;
#54 =( NAMED_UNIT ( * ) SI_UNIT ( $, .STERADIAN. ) SOLID_ANGLE_UNIT ( ) );
#55 =( NAMED_UNIT ( * ) PLANE_ANGLE_UNIT ( ) SI_UNIT ( $, .RADIAN. ) );
#56 = CC_DESIGN_PERSON_AND_ORGANIZATION_ASSIGNMENT ( #13, #21, ( #61 ) ) ;
#57 = PERSON_AND_ORGANIZATION ( #4, #134 ) ;
#58 = CC_DESIGN_APPROVAL ( #59, ( #61 ) ) ;
#59 = APPROVAL ( #28, 'UNSPECIFIED' ) ;
#60 = FACE_OUTER_BOUND ( 'NONE', #99, .T. ) ;
#61 = PRODUCT_DEFINITION ( 'UNKNOWN', '', #48, #91 ) ;
#62 = CC_DESIGN_PERSON_AND_ORGANIZATION_ASSIGNMENT ( #157, #34, ( #125 ) ) ;
#63 = AXIS2_PLACEMENT_3D ( 'NONE', #106, #119, #38 ) ;
#64 = CIRCLE ( 'NONE', #155, 8.000000000000000000 ) ;
#65 = CYLINDRICAL_SURFACE ( 'NONE', #146, 8.000000000000000000 ) ;
#66 =( LENGTH_UNIT ( ) NAMED_UNIT ( * ) SI_UNIT ( .MILLI., .METRE. ) );
#67 = MANIFOLD_SOLID_BREP ( 'Áîáûøêà-Âûòÿíóòü1', #94 ) ;
#68 = ADVANCED_FACE ( 'NONE', ( #102, #103 ), #65, .T. ) ;
#69 = CIRCLE ( 'NONE', #150, 6.000000000000000900 ) ;
#70 = CARTESIAN_POINT ( 'NONE',  ( 0.0000000000000000000, 0.0000000000000000000, 2000.000000000000000 ) ) ;
#71 = APPROVAL_STATUS ( 'not_yet_approved' ) ;
#72 = FACE_BOUND ( 'NONE', #82, .T. ) ;
#73 = DIRECTION ( 'NONE',  ( -1.000000000000000000, 0.0000000000000000000, 0.0000000000000000000 ) ) ;
#74 = AXIS2_PLACEMENT_3D ( 'NONE', #70, #92, #73 ) ;
#75 = EDGE_CURVE ( 'NONE', #32, #32, #69, .T. ) ;
#76 = EDGE_CURVE ( 'NONE', #31, #31, #64, .T. ) ;
#77 = DIRECTION ( 'NONE',  ( 1.000000000000000000, 0.0000000000000000000, 0.0000000000000000000 ) ) ;
#78 =( GEOMETRIC_REPRESENTATION_CONTEXT ( 3 ) GLOBAL_UNCERTAINTY_ASSIGNED_CONTEXT ( ( #108 ) ) GLOBAL_UNIT_ASSIGNED_CONTEXT ( ( #66, #55, #54 ) ) REPRESENTATION_CONTEXT ( 'NONE', 'WORKASPACE' ) );
#79 = DIRECTION ( 'NONE',  ( 0.0000000000000000000, 0.0000000000000000000, 1.000000000000000000 ) ) ;
#80 = ORIENTED_EDGE ( 'NONE', *, *, #75, .F. ) ;
#81 = EDGE_LOOP ( 'NONE', ( #164 ) ) ;
#82 = EDGE_LOOP ( 'NONE', ( #114 ) ) ;
#83 = CARTESIAN_POINT ( 'NONE',  ( 0.0000000000000000000, 0.0000000000000000000, 2000.000000000000000 ) ) ;
#84 = DATE_AND_TIME ( #39, #160 ) ;
#85 = ORIENTED_EDGE ( 'NONE', *, *, #76, .F. ) ;
#86 = EDGE_LOOP ( 'NONE', ( #122 ) ) ;
#87 = PRODUCT_RELATED_PRODUCT_CATEGORY ( 'detail', '', ( #125 ) ) ;
#88 = EDGE_LOOP ( 'NONE', ( #80 ) ) ;
#89 = DIRECTION ( 'NONE',  ( -0.0000000000000000000, -0.0000000000000000000, -1.000000000000000000 ) ) ;
#90 = LOCAL_TIME ( 9, 41, 32.00000000000000000, #96 ) ;
#91 = DESIGN_CONTEXT ( 'detailed design', #30, 'design' ) ;
#92 = DIRECTION ( 'NONE',  ( -0.0000000000000000000, -0.0000000000000000000, -1.000000000000000000 ) ) ;
#93 = APPROVAL_PERSON_ORGANIZATION ( #2, #45, #15 ) ;
#94 = CLOSED_SHELL ( 'NONE', ( #130, #120, #68, #166 ) ) ;
#95 = CARTESIAN_POINT ( 'NONE',  ( 6.000000000000000900, 0.0000000000000000000, 2000.000000000000000 ) ) ;
#96 = COORDINATED_UNIVERSAL_TIME_OFFSET ( 3, 0, .AHEAD. ) ;
#97 = DIRECTION ( 'NONE',  ( 1.000000000000000000, 0.0000000000000000000, 0.0000000000000000000 ) ) ;
#98 = EDGE_LOOP ( 'NONE', ( #128 ) ) ;
#99 = EDGE_LOOP ( 'NONE', ( #85 ) ) ;
#100 = DATE_AND_TIME ( #162, #169 ) ;
#101 = ORIENTED_EDGE ( 'NONE', *, *, #36, .F. ) ;
#102 = FACE_OUTER_BOUND ( 'NONE', #98, .T. ) ;
#103 = FACE_OUTER_BOUND ( 'NONE', #132, .T. ) ;
#104 = ADVANCED_BREP_SHAPE_REPRESENTATION ( 'CTR10-016-K02-100-1 T¨ºñð óûðôúð  öõ¸ªúð  ¦=- d16 L¦¦ ¢õ¨ýð  (100ü)', ( #67, #63 ), #78 ) ;
#105 = CIRCLE ( 'NONE', #165, 6.000000000000000900 ) ;
#106 = CARTESIAN_POINT ( 'NONE',  ( 0.0000000000000000000, 0.0000000000000000000, 0.0000000000000000000 ) ) ;
#107 = CARTESIAN_POINT ( 'NONE',  ( 8.000000000000000000, 0.0000000000000000000, 0.0000000000000000000 ) ) ;
#108 = UNCERTAINTY_MEASURE_WITH_UNIT (LENGTH_MEASURE( 1.000000000000000100E-005 ), #66, 'distance_accuracy_value', 'NONE');
#109 = APPROVAL_DATE_TIME ( #46, #45 ) ;
#110 = CARTESIAN_POINT ( 'NONE',  ( 6.000000000000000900, 0.0000000000000000000, 0.0000000000000000000 ) ) ;
#111 = DIRECTION ( 'NONE',  ( 0.0000000000000000000, 0.0000000000000000000, 1.000000000000000000 ) ) ;
#112 = EDGE_LOOP ( 'NONE', ( #101 ) ) ;
#113 = AXIS2_PLACEMENT_3D ( 'NONE', #131, #158, #127 ) ;
#114 = ORIENTED_EDGE ( 'NONE', *, *, #36, .T. ) ;
#115 = CALENDAR_DATE ( 2016, 17, 5 ) ;
#116 = LOCAL_TIME ( 9, 41, 32.00000000000000000, #152 ) ;
#117 = AXIS2_PLACEMENT_3D ( 'NONE', #83, #79, #97 ) ;
#118 = ORIENTED_EDGE ( 'NONE', *, *, #76, .T. ) ;
#119 = DIRECTION ( 'NONE',  ( 0.0000000000000000000, 0.0000000000000000000, 1.000000000000000000 ) ) ;
#120 = ADVANCED_FACE ( 'NONE', ( #60, #72 ), #121, .F. ) ;
#121 = PLANE ( 'NONE',  #124 ) ;
#122 = ORIENTED_EDGE ( 'NONE', *, *, #75, .T. ) ;
#123 = CARTESIAN_POINT ( 'NONE',  ( 8.000000000000000000, 0.0000000000000000000, 2000.000000000000000 ) ) ;
#124 = AXIS2_PLACEMENT_3D ( 'NONE', #24, #139, #138 ) ;
#125 = PRODUCT ( 'CTR10-016-K02-100-1 Òðóáà ãëàäêàÿ æåñòêàÿ ÏÍÄ d16 ÈÝÊ ÷åðíàÿ (100ì)', 'CTR10-016-K02-100-1 Òðóáà ãëàäêàÿ æåñòêàÿ ÏÍÄ d16 ÈÝÊ ÷åðíàÿ (100ì)', '', ( #37 ) ) ;
#126 = APPROVAL_PERSON_ORGANIZATION ( #57, #16, #8 ) ;
#127 = DIRECTION ( 'NONE',  ( 1.000000000000000000, 0.0000000000000000000, -0.0000000000000000000 ) ) ;
#128 = ORIENTED_EDGE ( 'NONE', *, *, #141, .F. ) ;
#129 = PLANE ( 'NONE',  #113 ) ;
#130 = ADVANCED_FACE ( 'NONE', ( #151, #49 ), #129, .T. ) ;
#131 = CARTESIAN_POINT ( 'NONE',  ( 0.0000000000000000000, 0.0000000000000000000, 2000.000000000000000 ) ) ;
#132 = EDGE_LOOP ( 'NONE', ( #118 ) ) ;
#133 = PRODUCT_DEFINITION_SHAPE ( 'NONE', 'NONE',  #61 ) ;
#134 = ORGANIZATION ( 'UNSPECIFIED', 'UNSPECIFIED', '' ) ;
#135 = PERSON_AND_ORGANIZATION ( #4, #134 ) ;
#136 = CALENDAR_DATE ( 2016, 17, 5 ) ;
#137 = DIRECTION ( 'NONE',  ( -1.000000000000000000, 0.0000000000000000000, 0.0000000000000000000 ) ) ;
#138 = DIRECTION ( 'NONE',  ( 1.000000000000000000, 0.0000000000000000000, -0.0000000000000000000 ) ) ;
#139 = DIRECTION ( 'NONE',  ( 0.0000000000000000000, 0.0000000000000000000, 1.000000000000000000 ) ) ;
#140 = PERSON_AND_ORGANIZATION ( #4, #134 ) ;
#141 = EDGE_CURVE ( 'NONE', #25, #25, #43, .T. ) ;
#142 = DIRECTION ( 'NONE',  ( 1.000000000000000000, 0.0000000000000000000, 0.0000000000000000000 ) ) ;
#143 = LOCAL_TIME ( 9, 41, 32.00000000000000000, #163 ) ;
#144 = CARTESIAN_POINT ( 'NONE',  ( 0.0000000000000000000, 0.0000000000000000000, 0.0000000000000000000 ) ) ;
#145 = CARTESIAN_POINT ( 'NONE',  ( 0.0000000000000000000, 0.0000000000000000000, 2000.000000000000000 ) ) ;
#146 = AXIS2_PLACEMENT_3D ( 'NONE', #20, #89, #137 ) ;
#147 = COORDINATED_UNIVERSAL_TIME_OFFSET ( 3, 0, .AHEAD. ) ;
#148 = PERSON_AND_ORGANIZATION ( #4, #134 ) ;
#149 = CARTESIAN_POINT ( 'NONE',  ( 0.0000000000000000000, 0.0000000000000000000, 0.0000000000000000000 ) ) ;
#150 = AXIS2_PLACEMENT_3D ( 'NONE', #145, #168, #142 ) ;
#151 = FACE_OUTER_BOUND ( 'NONE', #81, .T. ) ;
#152 = COORDINATED_UNIVERSAL_TIME_OFFSET ( 3, 0, .AHEAD. ) ;
#153 = APPROVAL_DATE_TIME ( #100, #59 ) ;
#154 = DIRECTION ( 'NONE',  ( 1.000000000000000000, 0.0000000000000000000, 0.0000000000000000000 ) ) ;
#155 = AXIS2_PLACEMENT_3D ( 'NONE', #149, #156, #154 ) ;
#156 = DIRECTION ( 'NONE',  ( 0.0000000000000000000, 0.0000000000000000000, 1.000000000000000000 ) ) ;
#157 = PERSON_AND_ORGANIZATION ( #4, #134 ) ;
#158 = DIRECTION ( 'NONE',  ( 0.0000000000000000000, 0.0000000000000000000, 1.000000000000000000 ) ) ;
#159 = DATE_AND_TIME ( #115, #116 ) ;
#160 = LOCAL_TIME ( 9, 41, 32.00000000000000000, #147 ) ;
#161 = PERSON_AND_ORGANIZATION ( #4, #134 ) ;
#162 = CALENDAR_DATE ( 2016, 17, 5 ) ;
#163 = COORDINATED_UNIVERSAL_TIME_OFFSET ( 3, 0, .AHEAD. ) ;
#164 = ORIENTED_EDGE ( 'NONE', *, *, #141, .T. ) ;
#165 = AXIS2_PLACEMENT_3D ( 'NONE', #144, #111, #77 ) ;
#166 = ADVANCED_FACE ( 'NONE', ( #50, #42 ), #33, .F. ) ;
#167 = APPROVAL_PERSON_ORGANIZATION ( #161, #59, #23 ) ;
#168 = DIRECTION ( 'NONE',  ( 0.0000000000000000000, 0.0000000000000000000, 1.000000000000000000 ) ) ;
#169 = LOCAL_TIME ( 9, 41, 32.00000000000000000, #51 ) ;
ENDSEC;
END-ISO-10303-21;
